Riff Chart

grapevine
|-----------------------------|
|-----------------------------|
|-----------------------------|
|-----------------------------|
|-----------------------------|
|-0----0-3--0-----0-0--3-2--0-|
satisfaction
|----------------------------------|
|----------------------------------|
|----------------------------------|
|----------------------------------|
|----------------------------------|
|-0--0----0--2--3----3--3--2--0--0-|
i wanna be your dog
|---------------------------------|
|---------------------------------|
|---------------------------------|
|---------------------------------|
|---------------------------------|
|-3-3-3-3-2-2-2-2-0-0-0-0-0-0-0-0-|
bela lugosi's dead
|------------------------------------------------------------|
|------------------------------------------------------------|
|------------------------------------------------------------|
|------------------------------------------------------------|
|------------------------------------------------------------|
|-3--------------2--------------0----------------------------|